Nazareth — Love Hurts

Как говорится — классика жанра.

Аккорды
Verse 1
G           Em          CaddG           D    C
Love hurts, love scars, love wounds and mars
G          Em           CaddG       D  C
Any heart, not tough or strong enough
           Em        Asus2                G
To take a lot of pain, take a lot of pain
Em                    CaddG                D    C
Love is like a cloud, it holds a lot of rain
G           F      C
Love hurts, ooh ooh love hurts

Verse 2

G          Em       CaddG     D   C
I’m young, I know, but even so
           G       Em        CaddG      D   C
I know a thing or two, I learned from you
                     Em      Asus2          G
I really learned a lot, really learned a lot
Em              CaddG                D      C
Love is like a flame it burns you when it’s hot
G           F      C
Love hurts, ooh ooh love hurts

Bridge

G                   Em      G    Em       G    Em       G
Some fools think of happiness, blissfulness, togetherness
A                A
Some fools fool themselves, I guess
A                     D    C
They’re not foolin’ me
                   Em  Asus2             G
I know it isn’t true I know it isn’t true
Em              CaddG            D      C
Love is just a lie made to make you blue
G           F      C
Love hurts, ooh ooh love hurts

Solo

Rhythm plays rhythm figure 2


Outro

               Em  Asus2                 G
I know it isn’t true, I know it isn’t true
Em              CaddG            D      C
Love is just a lie made to make you blue
G           F      C          G
Love hurts, ooh ooh love hurts
F      C        G   F      C
Ooh ooh love hurts, ooh ooh

Табы

   G         G            F       C

e:-----3--------3---------0-------0-------------: x2
B:------0--------0--------1-------1-------------:
G:----0--0-----0--0-------2-------0-------------:
D:---0--------0-----------3-------2-------------:
A:--2--------2------------0-------3-------------:
E:-3--------3-------------0-------0-------------:

Verses 1-2

    G           Em      CaddG    D     C   G        Em       CaddG    D     C
e:------3--------0--------0------2-------------3--------0--------0------3-----------|
B:-------0--------0--------1------3----1--------0--------0--------1------2----1-----|
G:-----0--0-----0--0-----0--0---2-------0-----0--0-----0--0-----0--0---2-------0----|
D:----0--------2--------2------0------2------0--------2--------2------0------2------|
A:---2--------2--------3-------------3------2--------2--------3-------------3-------|
E:--3--------0--------3--------------------3--------0--------3----------------------|

  Em   Asus2  G    Em    CaddG    D     C     G            F     C    G        G
e:---------------------------0------3-------------3--------0-----0--------3--------3---| x2
B:---0----0-----0-----0-------1------3----0--------0-------1-----1---------0--------0--|
G:--0----2-----0-----0------0--0---2-------1-----0--0------2-----0-------0--0-----0—-0-|
D:-2----2-----0-----2------2------0------2------0----------3-----2------0--------0-----|
A:2----0-----2-----2------3-------------3------2-----------0-----3-----2--------2------|
E:-----------------------3--------------------3------------0-----0----3--------3-------|

Bridge

   G      Em G    Em G    Em G    A    A    A       D     C
e:-3------0--3----0--3----0--3----0----0----0----------3-------------------------------|
B:-0------0--0----0--0----0--0----0----0----0-----------2----1------0-----0-----0-----0|
G:-0------0--0----0--0----0--0----0----0----0---------2-------0----0-----2-----0-----0-|
D:-0------2--0----2--0----2--0----7----7----7--------0------2-----2-----2-----0-----2--|
A:-2------2--2----2--2----2--2----7----7----7--------------3-----2-----0-----2-----2---|
E:-3------0--3----0--3----0--3----5----5----5------------------------------------------|

   CaddG    D     C     G           F  C  G          F  C   G        G
e:------1------3-------------3------0--0-------3-----0--0-------3--------3----|
B:-------0------2----1--------0-----1--1--------0----1--1--------0--------0---|
G:-----0--0---2-------0-----0--0----2--0------0--0---2--0------0--0-----0--0--|
D:----2------0------2------0--------3--2-----0-------3--2-----0--------0------|
A:---3-------------3------2---------0--3----2--------0--3----2--------2-------|
E:--3--------------------3----------0--0---3---------0--0---3--------3--------|

Solo

e:-------------------------------------------------------------------------------|
B:8v--10fb--8v--12fb--8v--12fb--10v--8fb--8v--10fb--8v--12fb--8v--12fb--10v—14fbv|
G:-------------------------------------------------------------------------------|
D:-------------------------------------------------------------------------------|
A:-------------------------------------------------------------------------------|
E:-------------------------------------------------------------------------------|
Rhythm played underneath the solo


Rhythm figure 2
    G           Em      CaddG    D     C   G        Em       CaddG    D     C
e:------3--------0--------0------2-------------3--------0--------0------3-----------|
B:-------0--------0--------1------3----1--------0--------0--------1------2----1-----|
G:-----0--0-----0--0-----0--0---2-------0-----0--0-----0--0-----0--0---2-------0----|
D:----0--------2--------2------0------2------0--------2--------2------0------2------|
A:---2--------2--------3-------------3------2--------2--------3-------------3-------|
E:--3--------0--------3--------------------3--------0--------3----------------------|

  Em   Asus2  G    Em    CaddG    D     C     G        F  C  G        F  C  G        F  C
e:---------------------------0------3-------------3----0--0------3----0--0------3----0--0|
B:---0----0-----0-----0-------1------3----0--------0---1--1-------0---1--1-------0---1--1|
G:--0----2-----0-----0------0--0---2-------1-----0--0--2--0-----0--0--2--0--—--0--0--2--0|
D:-2----2-----0-----2------2------0------2------0------3--2----0------3--2----0------3--2|
A:2----0-----2-----2------3-------------3------2-------0--3---2-------0--3---2-------0--3|
E:-----------------------3--------------------3--------0--0--3--------0--0--3--------0--0|