Метка: chords

AC/DC — Highway To Hell

Зажгём под ретро? 😀

Аккорды

INTRO:
            A                 D/F#  G      D/F#  G     D/F#  G     D/F#   A
E------------------------------------------------------------------------------
B-----------2--2--2-----------3--3--3------3--3--3-----3--3--3------------2--2-
G-----------2--2--2-----------2--2--0------2--2--0-----2--2--0------2-----2--2-
D-----------2--2--2-----------0--0--0------0--0--0-----0--0--0------0-----2--2-
A-----------0--0--0-------------------------------------------------------0--0-
E-----------------------------2--2--3------2--2--3-----2--2--3------2----------
A A A
              D D/F# G              D D/F# G
     Livin' easy,        livin' free,
D D/F# G       D/F#    A A
     Season ticket on a one way rideЧитать далее

The Mamas & The Papas — California Dreamin’

Сегодня в универе была лекция про хиппи. Вот и потянуло на эту тему. Золотое время было (???). Наверное в прошлой жизни я был очень близко связан с этим. 🙂

Intro  :

	e-----------------|----0-1-0--------|-----------------|-0-
	B-----1---3--1--0-|------------3----|---1-3-1---------|-0-
	G---2-------------|-----------------|---------4-2-0---|-1-
	D-2-----2---------|-----------------|-----------------|-2-
	A-----------------|-----------------|-----------------|-2-
	E-----------------|-----------------|-----------------|-0-

Verse 1:
        NC                Am        G          F
	All the leaves are brown
	                   (all the leaves are brown)Читать далее

John Lennon — Imagine (как играть?)

Довольно давно я начал учиться играть на клавишах и одно из первых моих упражнений была песня Imagine Джона Леннона. Потом в итоге я это дело забросил, но вот недавно решил возобновить обучение.

Из многих видео разборов я выбрал именно этот т.к. по моему он самый доступный для понимания новичкам коим я тоже и являюсь.
Вообще песня Imagine лично для меня является, какой то загадочной, немного необычной, скрывающий какой то тайный смысл слов автора исполнителя. И при этом обладающая удивительной лёгкостью восприятия.

Песня, конечно клавишная, но и на гитаре вполне сыграть можно. Например, как на этом видеоЧитать далее

Scorpions — You And I (аккорды)

Скорпионс, что тут скажешь.Каждая песня почти шедевр. Причём со своим неповторимым стилем. Потому они мне и нравятся.  По моему по количеству мелодичных рок баллад они на первом месте. ИМХО

Прошу заметить, что играется, в принципе, элементарно. Вот аккорды.

Intro:
        E
        C  E  Am  Dm  C  G

C           Am  Dm                 G
 I lose control  because of you babe
C            Am Dm                  G
 I lose control  when you look at me like this
Читать далее