Метка: chords

Thin Lizzy — Whiskey In The Jar

Между прочим, изначально старинная ирландская народная фолк песня. Но вот в своё время Thin Lizzy её немного изменили. Ну, а спустя пару десятков лет и Металлика подключилась сделае её эээ… не совсем народной. 🙂

   G                   Em
As I was goin over the cork and kerry mountains
  C                           G
I saw captain farrell and his money he was countinЧитать далее

Frank Sinatra and Grace Kelly — Somethin’ Stupid

Изначально это песенка была написана Керсоном Парксом и впервые исполнена им и его женой Гейл Фут. Но больше всего она известна в исполнении Фрэнка Синатры и Грейс Келли. Есть ещё современная версия от Робби Уильямса и Николь Кидман, но мне она не легла на душу. Неживая она, какая то.

INTRO

F#m  B  F#m  B  E

  E		  E6
I know I stand in line until you

E		    E6		    F#m		     B  F#m  B
think you have the time to spend an evening with meЧитать далее

The Rolling Stones — Angie

На мой взгляд, одна из самых мелодичных и «слушабельных» песен Роллинг Стоунс.

Аккорды

INTRO
	Am				E7
|--0---0---3--0--3------|--0--0--0--0-------|
|--1---1---1--1--1------|--0--0--0--3-------|
|--2---2---2--2--2------|--1--1--1--1-------|
|--2---2---2--2--2------|--0--0--0--0-------|
|-----------------------|--2--2--2--2-------|
|-----------------------|--0--0--0--0-------|

    G           Bbsus2 F     F   C  G  C        C        Am
|--5--5--5--5-----1----1--|--1---0--3--0------------------0--|
|--5--5--5--5-----1----1--|--1---1--0--1------------------1--|
|--6--6--7--6-----3----2--|--2---0--0--0----------0-------2--|
|--7--7--5--7-----3----3--|--3---2--0--2------0-2---2-0---2--|
|--7--7--7--7-----1----3--|--3---3--2--3---3-----------------|
|--5--5--5--5-----1----1--|--1---0--3--0---------------------|

Verse (same as intro)
Angie, Angie
When will those clouds all disappear
Angie, Angie
Where were the ladies from hereЧитать далее